Më mbaj mend (për 1 muaj)

Hyrja është kryer me sukses!

Official Video Kërko Video

7me7 - Eksperi-Mental  Lyrics


Zgjidhni me sa yje do votoni

Mesatarja:  5 / Votuan:  3

Komente

Asnjë Koment

24/05/2004

2004-05-23T23:00:00+00:00

Pjesëmarrëse në

Top Fest 1




Ka hi nje dreq i madh ktu
Ky vend bombe e kurdisur
Djep i dikujt
Nxenesat aktrojne hollivudin
Burgu me i madh
Ky vend u bekofte

Ne jemi njerez
ne jemi test
ne jemi nje kompleks
eksperimental

korrik e shtatore
Mos vdeksha prej natyres
ju flet nje ze i lire
1244
nga qielli po vijne
marrin shtegetimin
toleranca korrupcioni
Ky shtet publik
Ky shtet publik

Ne jemi njerez
ne jemi test
ne jemi nje kompleks
eksperimental


Ky tekst u dërgua nga  gresa



Akordet:

E, E7, Gm7
Ref: F, E, D


E E7 Gm7 (sjam i sigurt per emertim)
e|--------0---------3--------------------------------------------------
B|--------3---------3-------------------------------------------------
G|---1---1---------3---------------------------------------------------
D|---2-- 2---------3---------------------------------------------
A|---2-- 2---------5------------------------------------------------
E|---0---0---------3-------------------------------------------

Ref
F E D F E D
e|------------------------------------------------------------------
B|------------------------------------------------------------------
G|---------------ose -----------------------------------------------
D|--(3)-(2)-(0)--------10---9---7------------------------
A|---3---2---0---------8----7---5---------------------
E|---1---0---x--------------------------------------------


Më Shumë Këngë Nga 7me7:


Komente mbi këtë këngë


* Të regjistruarit mund të votojnë ose të sinjalizojnë komentet