Më mbaj mend (për 1 muaj)

Hyrja është kryer me sukses!


CORONAVIRUS NË SHQIPËRI DHE KOSOVË
Audio Kërko Video

BB Poqi - Ti Je Vetem Nje Iluzion  Lyrics


Zgjidhni me sa yje do votoni

Mesatarja:  4.7 / Votuan:  6

Komente

Asnjë Koment

01/12/2000

2000-11-30T23:00:00+00:00

Këngë e albumit:

"Sa Për Fillim"




Sonte hesht qyteti
shiu dot filloj
kerkoj shikimin tend n'errsire
qiftet rruges kalojn
me marrin per te marr
kjo nate me kujton gezimin dhe dashurin

qastet me duken shekuj
nata me eshte e gjat pa ty
femirin ma morren enderrat
e enderrat mi more ti
larg fryen era bartin pluhurin
dhe gjurmet e tua
ti shkove por kujtimi yt
jeton thell diku ne mua

Sonte hesht qyteti
shiu dot filloj
kerkoj shikimin tend n'errsire
qiftet rruges kalojn
me marrin per te marr
kjo nate me kujton gezimin dhe dashurin

qastet me duken shekuj
nata me eshte e gjat pa ty
femirin ma morren enderrat
e enderrat mi more ti
larg fryen era bartin pluhurin
dhe gjurmet e tua
ti shkove por kujtimi yt
jeton thell diku ne muaaaa

Ti je vetem nje iluzion
dhe asgje me shumee
ti je nje enderr qe me mundoj
a te kujtohem unee

Ti je vetem nje iluzion
dhe asgje me shumee
ti je nje enderr qe me mundoj
a te kujtohem unee

eeeeeee
Ti je vetem nje iluzion
dhe asgje me shumee
ti je nje enderr qe me mundoj
a te kujtohem unee 2X





Akordet:

e|-------0--------------------------------------------
B|----0p1-1-------------------------------------------
G|---2-----2----0----0--------------------------------
D|--2----------2----0---------------------------------
A|-0----------3----2----3-2-0-------------------------
E|----------------------------------------------------

e|-------0--------------------------------------------
B|----0p1-1-------------------------------------------
G|---2-----2----0----0--------------------------------
D|--2----------2----0---------------------------------
A|-0----------3----2----3-2-0-------------------------
E|----------------------------------------------------

Sonte hesht qyteti...
F / G / C /

-------------------------
-------------------------
-------------------------
----2-3-2-0--------0p3---
-3-----------3-2------0--
-------------------------

Kerkoj Shikimin ...
Am / F / G / E


Qiftet rruges...
F / G / C /

-------------------------
-------------------------
-------------------------
----2-3-2-0--------0p3---
-3-----------3-2------0--
-------------------------

Kjo nate me kujton...
Am / F / G / Em



Qastet duken shekuj...
Am / Em / F / G

Femijerin...
Am / Em / F / G

Lart ...
Am / Em / F / G

Ti shkove...
Am / Em / F / G


Qetu vjen solo...

tani
e|-------0--------------------------------------------
B|----0p1-1-------------------------------------------
G|---2-----2----0----0--------------------------------
D|--2----------2----0---------------------------------
A|-0----------3----2----3-2-0-------------------------
E|----------------------------------------------------

e|-------0--------------------------------------------
B|----0p1-1-------------------------------------------
G|---2-----2----0----0--------------------------------
D|--2----------2----0---------------------------------
A|-0----------3----2----3-2-0-------------------------
E|----------------------------------------------------

Sonte hesht qyteti...
F / G / C /

----------------------
----------------------
----------------------
-2-3-2-0------0p3---
-3--------3-2------0-
----------------------

Kerkoj Shikimin ...
Am / F / G / Em


Qiftet rruges...
F / G / C /

----------------------
----------------------
----------------------
-2-3-2-0------0p3---
-3--------3-2------0-
----------------------

Kjo nate me kujton...
Am / F / G / Em



Qastet duken shekuj...
Am / Em / F / G

Femijerin...
Am / Em / F / G

Lart ...
Am / Em / F / G

Ti shkove...
Am / Em / F / G

Riffs
Ti je vetem
E
Nje iluzion
A / G / F

Dhe asgje
E
Me shume
A / G / E

Ti je nje enderr qe me mungon
A / C / G
E


Më Shumë Këngë Nga BB Poqi:

Më Shumë...


Komente mbi këtë këngë


* Të regjistruarit mund të votojnë ose të sinjalizojnë komentet