Audio

TNT - Ata Sy  Lyrics


Zgjidhni me sa yje do votoni

Mesatarja:  5 / Votuan:  1

Komente nga Fansat

Asnjë Koment 🔥🔥

01/12/1985

1985-12-01T00:00:00

Këngë e albumit:

"Biondina"

Këngë e albumit:

"Dasma"




ata sy, ata sy si harroj
kur ne ty, kur ne ty i kujtoj
tani s'ka, tani s'ka dileme.
syte e tu, syte e tu
jane si koker rrushi
qe si ka, qe si ka kerkushi
tani s'ka,tani s'ka dileme
syte e tu

ref:
A ka diqka me te bukur
shiqimi yt i thelle
a ka diqka me te vlefshme
se syte e tu te zi (x 2)

ata sy, ata sy si harroj
kur ne ty, kur ne ty i kujtoj
tani s'ka, tani s'ka dileme.
syte e tu, syte e tu
jane si koker rrushi
qe si ka, qe si ka kerkushi
tani s'ka, tani s'ka dileme
syte e tu


Ky tekst u dërgua nga Mitrovicalika



Akordet:

E--------------------------------------------------------------------------
H--------------------------------------------------------------------------
G-------------------------------------------------------------------------
D------------------------------------------5-------5----------------------
A----5-----7--7-------5----7--7---5-----3------2----------------------
E----3-----5--5-------3----5--5---3-------------------------------------



E--------------------------------------------------------------------------
H--------------------------------------------------------------------------
G-------------------------------------------------------------------------
D------------------------------------------7-------5----------------------
A----5-----7--7-------5----7--7---5-----5------3----------------------
E----3-----5--5-------3----5--5---3-------------------------------------


E--------------------------------------------------------------------------
H--------------------------------------------------------------------------
G-------------------------------------------------------------------------
D------------------------------------------5-------5----------------------
A----5-----7--7-------5----7--7---5-----3------2----------------------
E----3-----5--5-------3----5--5---3-------------------------------------


E--------------------------------------------------------------------------
H--------------------------------------------------------------------------
G-------------------------------------------------------------------------
D--------------------------------------------------------------------------
A----5-----7--7-------5----7--7-------3---2---3----------------------
E----3-----5--5-------3----5--5-------1---0---1-----------------------


Më Shumë Këngë Nga TNT:

Më Shumë...