Më mbaj mend (për 1 muaj)

Hyrja është kryer me sukses!


CORONAVIRUS NË SHQIPËRI DHE KOSOVË
Audio Kërko Video

Troja - Jena Na  Lyrics


Zgjidhni me sa yje do votoni

Mesatarja:  5 / Votuan:  3

Komente

Asnjë Koment

01/06/2006

2006-05-31T23:00:00+00:00

Pjesëmarrëse në

VFM 2006




Jena na ata që krejt i dimë
pikë për pikë gjakun ta pimë
jena na ata që besë nuk kem'
jena na ata, ata na jem'

Jena na ata që s'dimë ku jem'
jetojm jetë as n'tokë as n'qiell
jena na ata që s'mledhim men'
dojmë të jem' ata që na nuk jem'

Jena na ata që shohim n'terr
pesqin' vjet mrapa kem' met'
s'ka met kamë o që s'na ka shkel
jena na ata që vet nuk dojm' diell

Shko në pasqyrë,
shiko vetën në sy dhe kujto(hu)
kush je ti, kush jemi ne,
kush ishim dje?!
do t'thuash, do t'thuash,
DO T'THUASH:

Jena na ata që bota na njeh
vrajmë kur dojmë askush s'na sheh
dalim nesër askush s'na njeh
jena na ata që na nuk jem'

Jena na ata askush s'na do
ndërtojmë udhë që askun s'na qon
rrejmë çdo fjalë që na e thojmë
jena na ata që ktu na sundojnë!





Akordet:

Pinch harmonic (p.h)
e----------------------------------------------------------||--2~-||-----||
B----------------------------------------------------------||-----||-----||
G---4-4-5-2-4-----4-4-5-7-5-4----4-4-5-2-4----2-----5------||-----||-----||
D-2-------x-----2--------------2-------x------2--5--5------||-----||--4~-||
A-x-2-2-3-0-2---x-2-2-3-5-3-2--x-2-2-3-0-2----0--5--3-3-3--||-----||-----||
E-0-------------0--------------0-----------------3---------||-----||-----||
P.M
e-----------------------------------------------|
B---------------- P.H---------------------------|
G-4-------4--------5~--4-------4----------------|
D-4-------4------------4-------4--------p.h-----|
A-2-2-2---2-2-2--3-----2-2-2---2-2-2--0--3~-----|
E-----------------------------------------------|
P.M P.M___ P.M P.M___


Më Shumë Këngë Nga Troja:

Më Shumë...


Komente mbi këtë këngë


* Të regjistruarit mund të votojnë ose të sinjalizojnë komentet